Весеннее отчаяние

Автор
Опубликовано: 978 дней назад ( 4 апреля 2014)
+1
Голосов: 1
____________________________________________________________________________________________________________________________________________________________________________________________________________________________________________________________________________________________________________________________________________________________________________________________________________________________________________________________________________________________________________________

Похожие записи:

Поэт и Маятник
Не судите строго. Я тока первый раз пишу кудато стихи. Коменты. ПОЭТ И МАЯТНИК Юноша у подъезда сидит и никуда не спешит Снова отказ получил, не верет в него Сердце разбито и нет больше места любв...
Совсем немного о несбывшихся мечтах
Пытаюсь написать что-нибудь о том, что волнует меня, но все кажется уже сказанным сотни тысяч раз и таким пафосным.(например, почему так сложно быть собой, где справедливость и т.д.). Хочется уже р...
Комментарии (5)
Forever_Alone # 4 апреля 2014 в 20:34
Табулатура для бас-гитары??? scratch
Элис # 4 апреля 2014 в 20:47
Лист "в линию"для нот или комментариев)
Forever_Alone # 4 апреля 2014 в 20:54
Пусть тогда ноты будут) Песня для Элис про Элис laugh

A D
|-------0---------|-------0---------|-------2---------|-------2---------|
|-----------2-----|-----------2-----|-----3-----3-----|-----3-----3-----|
|-----2---------2-|-----2---------2-|---2-----2-----2-|---2-----2-----2-|
|---2-----2---2---|---2-----2---2---|-0-----------0---|-0-----------0---|
|-0---------------|-0---------------|-----------------|-----------------|
|-----------------|-----------------|-----------------|-----------------|

E A E
|-------0---------|-------0---------|-------0---------|-------0---------|
|-----------0-----|-----------0-----|-----------2-----|-----------0-----|
|-----1---------1-|-----1---------1-|-----2---------0-|---------------0-|
|---2-----2---2---|---2-----2---2---|---2-----2---2---|-----2---2---2---|
|-2---------------|-2---------------|-0---------------|---2-------------|
|-----------------|-----------------|-----------------|-0---------------|

Riff#1 : Riff#2 :
E E
|--------------------| |------------------|
|--------------------| |------------------|
|--------------------| |------------------|
|-------------0-2----| |------------------|
|-------0-2-4--------| |------------------|
|-0-2-4--------------| |-0---2---4--------|

Прослушать или скачать Smokie Living Next Door To Alice бесплатно на Простоплеер
Элис # 4 апреля 2014 в 21:51
Вау,как приятно smile
Forever_Alone # 4 апреля 2014 в 21:55
Чем могу smile